同桌的你吉他谱C调,同桌的你吉他谱C调扫弦

同桌的你吉他谱C调和同桌的你吉他谱C调扫弦是吉他领域中的两个重要概念。吉他谱是吉他演奏的一种记谱方式,而扫弦是指用手指或拨片一次性划过多个弦的演奏技巧。本文将详细介绍这两个概念的定义、分类及相关知识。

1. 同桌的你吉他谱C调

同桌的你吉他谱C调是指以C调为基准,按照吉他音阶进行编排的吉他谱。在吉他谱上,数字表示弦数,下方的数字、符号或字母代表按弦或把位的方式。同桌的你吉他谱C调可分为和弦谱和指法谱两种。和弦谱是以和弦名称为基准,通过指定的弦数和把位按照吉他音阶编写的谱。指法谱是以指法序列为基础,通过指定的弦数、把位和演奏方式进行编写。

例:同桌的你吉他谱C调和弦谱:

C/ / /

G/ /

Am/

F/

例:同桌的你吉他谱C调指法谱:

e|----0----|----3----|----0----|----1----|

B|----1----|----0----|----1----|----1----|

G|----0----|----0----|----2----|----2----|

D|----2----|----0----|----2----|----3----|

A|----3----|----2----|----0----|----3----|

E|----x----|----3----|----x----|----1----|

2. 同桌的你吉他谱C调扫弦

同桌的你吉他谱C调扫弦是指在演奏同桌的你吉他谱C调时,采用扫弦的演奏技巧。扫弦是一种运用手指或拨片划过多个弦弹奏的方式,用于创造连续的音乐效果。在扫弦时,手指或拨片快速地沿着吉他的弦往复运动,使多个弦同时发声。

例:同桌的你吉他谱C调扫弦:

e|--0---0---0---0---0---0---0---0---0---0--|

B|--1---1---1---1---1---1---1---1---1---1--|

G|--0---2---0---2---0---2---0---2---0---2--|

D|--2---0---2---0---2---0---2---0---2---0--|

A|--3-------3-------3-------3-------3------|

E|-----------------------------------------|

小结:

同桌的你吉他谱C调和同桌的你吉他谱C调扫弦是吉他演奏中的重要概念。同桌的你吉他谱C调是按照吉他音阶编写的谱,可以分为和弦谱和指法谱两种。同桌的你吉他谱C调扫弦是指采用扫弦技巧演奏同桌的你吉他谱C调。掌握这两个概念对于吉他演奏者来说至关重要,可帮助他们更好地演奏出自己想要的音乐效果。

本文对同桌的你吉他谱C调和同桌的你吉他谱C调扫弦进行了客观、专业、清晰和系统的阐述。希望读者通过本文的介绍,能够更好地理解和掌握这两个概念,并在吉他演奏中获得更好的表现。掌握好吉他谱和扫弦技巧,将为吉他手带来更多的演奏乐趣与成就感。

同桌的你吉他谱C调扫弦

引言

同桌的你吉他谱C调扫弦是指在C调下使用扫弦技巧演奏同桌的你。这种演奏方式以清晰、舒缓的音色和特定的节奏感受为特点,因此备受吉他爱好者的喜爱。本文将从定义、分类、举例和比较等角度,系统地介绍同桌的你吉他谱C调扫弦的相关知识。

正文

一、定义

同桌的你吉他谱C调扫弦指的是以C调为基准,使用扫弦技巧来演奏同桌的你这首曲子。扫弦技巧是指在吉他琴弦上平稳地运动拨动,使得多个音符连续地发出,产生连贯的音乐效果。

举例:

e|-----------------------------------------

B|--------1-----------1--------------------

G|-----0-----0-----0------0----------------

D|----------------2-----------------2-------

A|---3-----------3-----------------3--------

E|-------------------------------3----------

二、分类

同桌的你吉他谱C调扫弦可以分为两种常见的风格:流行风格和民谣风格。

流行风格:流行风格的扫弦演奏强调节奏感和动感,常用的扫弦方法有下行扫弦、上行扫弦和交叉扫弦。这种风格适合于快节奏和欢快的歌曲,营造出年轻活力和动感的氛围。

民谣风格:民谣风格的扫弦演奏注重柔和、悠扬的音色,常用的扫弦方法有下行扫弦和双指扫弦。这种风格适合于抒情或思考类的歌曲,给人一种静谧和思考的氛围。

三、举例

以下是一首同桌的你吉他谱C调扫弦的示例,以展示不同风格之间的差异。

示例1:流行风格

e|-----------------------------------------

B|--------1-----------1-----------1--------

G|-----0-----0-----0-----0-----0-----0-----

D|----------------2-----------2--------------

A|---3-----------------------------2---------

E|----------------------------------------3-

示例2:民谣风格

e|-----------------------------------------

B|--------1-----------1-----------1--------

G|-----0-----0-----0-----0-----0-----0-----

D|----------------2-----------2--------------

A|---3-----------3--------------------------

E|-----------------------------3--------------

四、比较

流行风格和民谣风格的同桌的你吉他谱C调扫弦,在演奏方式和音色上存在一些差异。流行风格注重音乐的动感和节奏感,扫弦时力度较大,速度较快;而民谣风格则更加注重音乐的柔和和悠扬,扫弦时力度较轻,速度较缓。这些差异使得同一首歌曲在不同的风格下演奏时产生不同的音乐效果和情感表达。

结尾

同桌的你吉他谱C调扫弦是一种受欢迎的演奏方式,可根据个人喜好选择流行风格或民谣风格。通过不同的扫弦技巧和音色表达,演奏者可以打造出独特的音乐风格,将同桌的你这首曲子演绎得更加生动、丰富。对于吉他爱好者来说,掌握同桌的你吉他谱C调扫弦,将为他们的吉他演奏带来更多的乐趣和挑战。

以上是对同桌的你吉他谱C调扫弦的相关知识的介绍,其中包括了定义、分类、举例和比较等内容。希望读者们通过本文的阅读,对同桌的你吉他谱C调扫弦有更加深入的了解,并能够在演奏中运用到这些知识点,展现出独特的音乐魅力。

同桌的你吉他谱C调前奏

同桌的你吉他谱C调前奏是一种常见的吉他弹奏方式,适合初学者和爱好者。本文将通过定义、分类、举例和比较等方法来系统地介绍这一主题。

一、定义

同桌的你吉他谱C调前奏是指使用C调弹奏方式演奏同桌的你这首歌曲前奏部分的指法和弹奏技巧。C调是一种常用的基本调式,而同桌的你是一首流行歌曲,因此其吉他谱的C调前奏备受关注。

在C调中,我们可以使用和弦C、F、G等来弹奏同桌的你的前奏部分。吉他手需要熟练掌握这些和弦的指法和过渡方式,以便能够流畅地演奏出前奏的旋律。

二、分类

同桌的你吉他谱C调前奏可以按照弹奏技巧的不同分为几个类别。常见的有扫弦、琶音和弹奏技巧结合等。

扫弦是一种常用的吉他弹奏技巧,在同桌的你吉他谱C调前奏中也得到了广泛应用。扫弦的指法相对简单,适合初学者练习。通过扫弦,吉他手可以快速地演奏出前奏的旋律,营造出独特的音乐效果。

琶音是一种指法,通过在吉他弦上轻拨产生连续的音符。在同桌的你吉他谱C调前奏中,琶音常常被用来增强旋律的层次和表现力。吉他手可以通过掌握琶音的技巧,使得演奏出的前奏更加生动、丰富。

除了扫弦和琶音外,同桌的你吉他谱C调前奏还可以通过弹奏技巧的结合来实现更多的表现手法。吉他手可以结合扫弦和琶音来演奏出前奏中的不同段落,以达到更好的音乐效果。这种技巧要求吉他手对于节奏、速度和音符的把握都具备较高水平。

举例来说,同桌的你吉他谱C调前奏中的第一段旋律可以通过扫弦和琶音的结合来演奏。吉他手可以使用扫弦的方式弹奏和弦C,然后通过琶音的技巧演奏出前奏的旋律。这样的组合使得前奏的效果更加生动、鲜明。

同桌的你吉他谱C调前奏是一种适合初学者和爱好者的吉他弹奏方式。通过定义、分类、举例和比较等方法,我们可以了解到其指法和弹奏技巧的重要性。无论是扫弦、琶音还是技巧结合,都可以让吉他手在演奏中展现出更多的音乐表现力。希望本文的介绍能够帮助到吉他爱好者们更好地掌握同桌的你吉他谱C调前奏的技巧,并在演奏中享受音乐的乐趣。